  0
SECTION
  2
HEADER
  9
$ACADVER
  1
AC1015
  9
$ACADMAINTVER
 70
     6
  9
$DWGCODEPAGE
  3
ANSI_1254
  9
$INSBASE
 10
0.0
 20
0.0
 30
0.0
  9
$EXTMIN
 10
0.0
 20
0.0
 30
0.0
  9
$EXTMAX
 10
279.4
 20
215.9
 30
0.0
  9
$LIMMIN
 10
0.0
 20
0.0
  9
$LIMMAX
 10
279.4
 20
215.9
  9
$ORTHOMODE
 70
     0
  9
$REGENMODE
 70
     1
  9
$FILLMODE
 70
     1
  9
$QTEXTMODE
 70
     0
  9
$MIRRTEXT
 70
     1
  9
$LTSCALE
 40
1.0
  9
$ATTMODE
 70
     1
  9
$TEXTSIZE
 40
3.5
  9
$TRACEWID
 40
1.0
  9
$TEXTSTYLE
  7
Standard
  9
$CLAYER
  8
0
  9
$CELTYPE
  6
ByLayer
  9
$CECOLOR
 62
   256
  9
$CELTSCALE
 40
1.0
  9
$DISPSILH
 70
     0
  9
$DIMSCALE
 40
1.0
  9
$DIMASZ
 40
3.5
  9
$DIMEXO
 40
1.0
  9
$DIMDLI
 40
3.75
  9
$DIMRND
 40
0.0
  9
$DIMDLE
 40
0.0
  9
$DIMEXE
 40
1.0
  9
$DIMTP
 40
0.0
  9
$DIMTM
 40
0.0
  9
$DIMTXT
 40
3.5
  9
$DIMCEN
 40
2.5
  9
$DIMTSZ
 40
0.0
  9
$DIMTOL
 70
     0
  9
$DIMLIM
 70
     0
  9
$DIMTIH
 70
     1
  9
$DIMTOH
 70
     1
  9
$DIMSE1
 70
     0
  9
$DIMSE2
 70
     0
  9
$DIMTAD
 70
     1
  9
$DIMZIN
 70
     0
  9
$DIMBLK
  1

  9
$DIMASO
 70
     1
  9
$DIMSHO
 70
     1
  9
$DIMPOST
  1

  9
$DIMAPOST
  1

  9
$DIMALT
 70
     0
  9
$DIMALTD
 70
     3
  9
$DIMALTF
 40
0.0393700787
  9
$DIMLFAC
 40
1.0
  9
$DIMTOFL
 70
     1
  9
$DIMTVP
 40
0.0
  9
$DIMTIX
 70
     0
  9
$DIMSOXD
 70
     0
  9
$DIMSAH
 70
     0
  9
$DIMBLK1
  1

  9
$DIMBLK2
  1

  9
$DIMSTYLE
  2
ISO-25
  9
$DIMCLRD
 70
     0
  9
$DIMCLRE
 70
     0
  9
$DIMCLRT
 70
     0
  9
$DIMTFAC
 40
1.0
  9
$DIMGAP
 40
1.524
  9
$DIMJUST
 70
     0
  9
$DIMSD1
 70
     0
  9
$DIMSD2
 70
     0
  9
$DIMTOLJ
 70
     0
  9
$DIMTZIN
 70
     0
  9
$DIMALTZ
 70
     0
  9
$DIMALTTZ
 70
     0
  9
$DIMUPT
 70
     0
  9
$DIMDEC
 70
     2
  9
$DIMTDEC
 70
     2
  9
$DIMALTU
 70
     2
  9
$DIMALTTD
 70
     3
  9
$DIMTXSTY
  7
Standard
  9
$DIMAUNIT
 70
     0
  9
$DIMADEC
 70
     2
  9
$DIMALTRND
 40
0.0
  9
$DIMAZIN
 70
     0
  9
$DIMDSEP
 70
    44
  9
$DIMATFIT
 70
     3
  9
$DIMFRAC
 70
     0
  9
$DIMLDRBLK
  1

  9
$DIMLUNIT
 70
     2
  9
$DIMLWD
 70
    -2
  9
$DIMLWE
 70
    -2
  9
$DIMTMOVE
 70
     0
  9
$LUNITS
 70
     2
  9
$LUPREC
 70
     2
  9
$SKETCHINC
 40
1.0
  9
$FILLETRAD
 40
10.0
  9
$AUNITS
 70
     0
  9
$AUPREC
 70
     2
  9
$MENU
  1
.
  9
$ELEVATION
 40
0.0
  9
$PELEVATION
 40
0.0
  9
$THICKNESS
 40
0.0
  9
$LIMCHECK
 70
     0
  9
$CHAMFERA
 40
0.0
  9
$CHAMFERB
 40
0.0
  9
$CHAMFERC
 40
0.0
  9
$CHAMFERD
 40
0.0
  9
$SKPOLY
 70
     0
  9
$TDCREATE
 40
2458985.699360822
  9
$TDUCREATE
 40
2458985.574360822
  9
$TDUPDATE
 40
2458985.699361111
  9
$TDUUPDATE
 40
2458985.574361111
  9
$TDINDWG
 40
0.0000000116
  9
$TDUSRTIMER
 40
0.0000000116
  9
$USRTIMER
 70
     1
  9
$ANGBASE
 50
0.0
  9
$ANGDIR
 70
     0
  9
$PDMODE
 70
     0
  9
$PDSIZE
 40
-1.0
  9
$PLINEWID
 40
0.0
  9
$SPLFRAME
 70
     0
  9
$SPLINETYPE
 70
     6
  9
$SPLINESEGS
 70
     8
  9
$HANDSEED
  5
F0
  9
$SURFTAB1
 70
     6
  9
$SURFTAB2
 70
     6
  9
$SURFTYPE
 70
     6
  9
$SURFU
 70
     6
  9
$SURFV
 70
     6
  9
$UCSBASE
  2

  9
$UCSNAME
  2

  9
$UCSORG
 10
0.0
 20
0.0
 30
0.0
  9
$UCSXDIR
 10
1.0
 20
0.0
 30
0.0
  9
$UCSYDIR
 10
0.0
 20
1.0
 30
0.0
  9
$UCSORTHOREF
  2

  9
$UCSORTHOVIEW
 70
     0
  9
$UCSORGTOP
 10
0.0
 20
0.0
 30
0.0
  9
$UCSORGBOTTOM
 10
0.0
 20
0.0
 30
0.0
  9
$UCSORGLEFT
 10
0.0
 20
0.0
 30
0.0
  9
$UCSORGRIGHT
 10
0.0
 20
0.0
 30
0.0
  9
$UCSORGFRONT
 10
0.0
 20
0.0
 30
0.0
  9
$UCSORGBACK
 10
0.0
 20
0.0
 30
0.0
  9
$PUCSBASE
  2

  9
$PUCSNAME
  2

  9
$PUCSORG
 10
0.0
 20
0.0
 30
0.0
  9
$PUCSXDIR
 10
1.0
 20
0.0
 30
0.0
  9
$PUCSYDIR
 10
0.0
 20
1.0
 30
0.0
  9
$PUCSORTHOREF
  2

  9
$PUCSORTHOVIEW
 70
     0
  9
$PUCSORGTOP
 10
0.0
 20
0.0
 30
0.0
  9
$PUCSORGBOTTOM
 10
0.0
 20
0.0
 30
0.0
  9
$PUCSORGLEFT
 10
0.0
 20
0.0
 30
0.0
  9
$PUCSORGRIGHT
 10
0.0
 20
0.0
 30
0.0
  9
$PUCSORGFRONT
 10
0.0
 20
0.0
 30
0.0
  9
$PUCSORGBACK
 10
0.0
 20
0.0
 30
0.0
  9
$USERI1
 70
     0
  9
$USERI2
 70
     0
  9
$USERI3
 70
     0
  9
$USERI4
 70
     0
  9
$USERI5
 70
     0
  9
$USERR1
 40
0.0
  9
$USERR2
 40
0.0
  9
$USERR3
 40
0.0
  9
$USERR4
 40
0.0
  9
$USERR5
 40
0.0
  9
$WORLDVIEW
 70
     1
  9
$SHADEDGE
 70
     3
  9
$SHADEDIF
 70
    70
  9
$TILEMODE
 70
     1
  9
$MAXACTVP
 70
    64
  9
$PINSBASE
 10
0.0
 20
0.0
 30
0.0
  9
$PLIMCHECK
 70
     0
  9
$PEXTMIN
 10
1.0000000000E+20
 20
1.0000000000E+20
 30
1.0000000000E+20
  9
$PEXTMAX
 10
-1.0000000000E+20
 20
-1.0000000000E+20
 30
-1.0000000000E+20
  9
$PLIMMIN
 10
0.0
 20
0.0
  9
$PLIMMAX
 10
420.0
 20
297.0
  9
$UNITMODE
 70
     0
  9
$VISRETAIN
 70
     1
  9
$PLINEGEN
 70
     0
  9
$PSLTSCALE
 70
     1
  9
$TREEDEPTH
 70
  3020
  9
$CMLSTYLE
  2
Standard
  9
$CMLJUST
 70
     0
  9
$CMLSCALE
 40
20.0
  9
$PROXYGRAPHICS
 70
     1
  9
$MEASUREMENT
 70
     1
  9
$CELWEIGHT
370
    -1
  9
$ENDCAPS
280
     0
  9
$JOINSTYLE
280
     0
  9
$LWDISPLAY
290
     1
  9
$INSUNITS
 70
     4
  9
$HYPERLINKBASE
  1

  9
$STYLESHEET
  1

  9
$XEDIT
290
     1
  9
$CEPSNTYPE
380
     0
  9
$PSTYLEMODE
290
     1
  9
$FINGERPRINTGUID
  2
{ff3e65a3-35ab-4a49-aff2-d9c3ddfd4106}
  9
$VERSIONGUID
  2
{FAEB1C32-E019-11D5-929B-00C0DF256EC4}
  9
$EXTNAMES
290
     1
  9
$PSVPSCALE
 40
0.0
  9
$OLESTARTUP
290
     0
  0
ENDSEC
  0
SECTION
  2
CLASSES
  0
CLASS
  1
ACDBDICTIONARYWDFLT
  2
AcDbDictionaryWithDefault
  3
ObjectDBX Classes
 90
        0
280
     0
281
     0
  0
CLASS
  1
VISUALSTYLE
  2
AcDbVisualStyle
  3
ObjectDBX Classes
 90
     4095
280
     0
281
     0
  0
CLASS
  1
MATERIAL
  2
AcDbMaterial
  3
ObjectDBX Classes
 90
     1153
280
     0
281
     0
  0
CLASS
  1
SCALE
  2
AcDbScale
  3
ObjectDBX Classes
 90
     1153
280
     0
281
     0
  0
CLASS
  1
TABLESTYLE
  2
AcDbTableStyle
  3
ObjectDBX Classes
 90
     4095
280
     0
281
     0
  0
CLASS
  1
MLEADERSTYLE
  2
AcDbMLeaderStyle
  3
ACDB_MLEADERSTYLE_CLASS
 90
     4095
280
     0
281
     0
  0
CLASS
  1
SUN
  2
AcDbSun
  3
SCENEOE
 90
     1153
280
     0
281
     0
  0
CLASS
  1
ACDBPLACEHOLDER
  2
AcDbPlaceHolder
  3
ObjectDBX Classes
 90
        0
280
     0
281
     0
  0
CLASS
  1
LAYOUT
  2
AcDbLayout
  3
ObjectDBX Classes
 90
        0
280
     0
281
     0
  0
ENDSEC
  0
SECTION
  2
TABLES
  0
TABLE
  2
VPORT
  5
8
330
0
100
AcDbSymbolTable
 70
     1
  0
VPORT
  5
29
330
8
100
AcDbSymbolTableRecord
100
AcDbViewportTableRecord
  2
*Active
 70
     0
 10
0.0
 20
0.0
 11
1.0
 21
1.0
 12
139.7
 22
107.95
 13
0.0
 23
0.0
 14
10.0
 24
10.0
 15
10.0
 25
10.0
 16
0.0
 26
0.0
 36
1.0
 17
0.0
 27
0.0
 37
0.0
 40
215.9
 41
1.2941176471
 42
50.0
 43
0.0
 44
0.0
 50
0.0
 51
0.0
 71
     0
 72
  2000
 73
     1
 74
     3
 75
     0
 76
     0
 77
     0
 78
     0
281
     0
 65
     1
110
0.0
120
0.0
130
0.0
111
1.0
121
0.0
131
0.0
112
0.0
122
1.0
132
0.0
 79
     0
146
0.0
  0
ENDTAB
  0
TABLE
  2
LTYPE
  5
5
330
0
100
AcDbSymbolTable
 70
     6
  0
LTYPE
  5
14
330
5
100
AcDbSymbolTableRecord
100
AcDbLinetypeTableRecord
  2
ByBlock
 70
     0
  3

 72
    65
 73
     0
 40
0.0
  0
LTYPE
  5
15
330
5
100
AcDbSymbolTableRecord
100
AcDbLinetypeTableRecord
  2
ByLayer
 70
     0
  3

 72
    65
 73
     0
 40
0.0
  0
LTYPE
  5
16
330
5
100
AcDbSymbolTableRecord
100
AcDbLinetypeTableRecord
  2
Continuous
 70
     0
  3
Solid line
 72
    65
 73
     0
 40
0.0
  0
LTYPE
  5
6E
330
5
100
AcDbSymbolTableRecord
100
AcDbLinetypeTableRecord
  2
HIDDEN
 70
     0
  3
Hidden __ __ __ __ __ __ __ __ __ __ __ __ __ __
 72
    65
 73
     2
 40
1.905
 49
1.27
 74
     0
 49
-0.635
 74
     0
  0
LTYPE
  5
6F
330
5
100
AcDbSymbolTableRecord
100
AcDbLinetypeTableRecord
  2
PHANTOM
 70
     0
  3
Phantom ______  __  __  ______  __  __  ______
 72
    65
 73
     6
 40
12.7
 49
6.35
 74
     0
 49
-1.27
 74
     0
 49
1.27
 74
     0
 49
-1.27
 74
     0
 49
1.27
 74
     0
 49
-1.27
 74
     0
  0
LTYPE
  5
70
330
5
100
AcDbSymbolTableRecord
100
AcDbLinetypeTableRecord
  2
CENTER
 70
     0
  3
Center ____ _ ____ _ ____ _ ____ _ ____ _ ____
 72
    65
 73
     4
 40
10.16
 49
6.35
 74
     0
 49
-1.27
 74
     0
 49
1.27
 74
     0
 49
-1.27
 74
     0
  0
LTYPE
  5
71
330
5
100
AcDbSymbolTableRecord
100
AcDbLinetypeTableRecord
  2
CENTERX2
 70
     0
  3
Center (2x) ________  __  ________  __  _____
 72
    65
 73
     4
 40
20.32
 49
12.7
 74
     0
 49
-2.54
 74
     0
 49
2.54
 74
     0
 49
-2.54
 74
     0
  0
LTYPE
  5
72
330
5
100
AcDbSymbolTableRecord
100
AcDbLinetypeTableRecord
  2
DOT2
 70
     0
  3
Dot (.5x) ........................................
 72
    65
 73
     2
 40
0.635
 49
0.0
 74
     0
 49
-0.635
 74
     0
  0
ENDTAB
  0
TABLE
  2
LAYER
  5
2
330
0
100
AcDbSymbolTable
 70
    17
  0
LAYER
  5
10
330
2
100
AcDbSymbolTableRecord
100
AcDbLayerTableRecord
  2
0
 70
     0
 62
     7
  6
Continuous
370
    -3
390
F
  0
LAYER
  5
73
330
2
100
AcDbSymbolTableRecord
100
AcDbLayerTableRecord
  2
FORMAT
 70
     0
 62
     7
  6
Continuous
370
    -3
390
F
  0
LAYER
  5
74
330
2
100
AcDbSymbolTableRecord
100
AcDbLayerTableRecord
  2
YARDIMCI_GEOMETRI
 70
     0
 62
    -6
  6
Continuous
290
     0
370
    -3
390
F
  0
LAYER
  5
75
330
2
100
AcDbSymbolTableRecord
100
AcDbLayerTableRecord
  2
SAYFA_CERCEVESI
 70
     0
 62
     7
  6
Continuous
370
    25
390
F
  0
LAYER
  5
76
330
2
100
AcDbSymbolTableRecord
100
AcDbLayerTableRecord
  2
ANTET
 70
     0
 62
     7
  6
Continuous
370
    -3
390
F
  0
LAYER
  5
77
330
2
100
AcDbSymbolTableRecord
100
AcDbLayerTableRecord
  2
OLCU
 70
     0
 62
   150
  6
Continuous
370
    -3
390
F
  0
LAYER
  5
78
330
2
100
AcDbSymbolTableRecord
100
AcDbLayerTableRecord
  2
METIN
 70
     0
 62
    96
  6
Continuous
370
    -3
390
F
  0
LAYER
  5
79
330
2
100
AcDbSymbolTableRecord
100
AcDbLayerTableRecord
  2
BALON
 70
     0
 62
     5
  6
Continuous
370
    -3
390
F
  0
LAYER
  5
7A
330
2
100
AcDbSymbolTableRecord
100
AcDbLayerTableRecord
  2
VURGU
 70
     0
 62
     7
  6
Continuous
370
    -3
390
F
  0
LAYER
  5
7B
330
2
100
AcDbSymbolTableRecord
100
AcDbLayerTableRecord
  2
SILIK
 70
     0
 62
     7
  6
Continuous
370
    -3
390
F
  0
LAYER
  5
7C
330
2
100
AcDbSymbolTableRecord
100
AcDbLayerTableRecord
  2
MODEL
 70
     0
 62
     7
  6
Continuous
370
    -3
390
F
  0
LAYER
  5
7D
330
2
100
AcDbSymbolTableRecord
100
AcDbLayerTableRecord
  2
DETAYLANDıRMA
 70
     0
 62
   190
  6
Continuous
370
    -3
390
F
  0
LAYER
  5
7E
330
2
100
AcDbSymbolTableRecord
100
AcDbLayerTableRecord
  2
TOLERANS
 70
     0
 62
   230
  6
Continuous
370
    -3
390
F
  0
LAYER
  5
7F
330
2
100
AcDbSymbolTableRecord
100
AcDbLayerTableRecord
  2
MERKEZ_CIZGILERI
 70
     0
 62
    30
  6
Continuous
370
    -3
390
F
  0
LAYER
  5
80
330
2
100
AcDbSymbolTableRecord
100
AcDbLayerTableRecord
  2
KESIT-DETAY_CIZGILERI
 70
     0
 62
     7
  6
Continuous
370
    -3
390
F
  0
LAYER
  5
81
330
2
100
AcDbSymbolTableRecord
100
AcDbLayerTableRecord
  2
\U+041E\U+0421\U+0415\U+0412\U+042B\U+0415
 70
     0
 62
     7
  6
Continuous
370
    -3
390
F
  0
LAYER
  5
82
330
2
100
AcDbSymbolTableRecord
100
AcDbLayerTableRecord
  2
\U+0412\U+041E\U+0414\U+042F\U+041D\U+042B\U+0415_\U+0417\U+041D\U+0410\U+041A\U+0418
 70
     0
 62
    11
  6
Continuous
370
    -3
390
F
  0
ENDTAB
  0
TABLE
  2
STYLE
  5
3
330
0
100
AcDbSymbolTable
 70
     1
  0
STYLE
  5
11
330
3
100
AcDbSymbolTableRecord
100
AcDbTextStyleTableRecord
  2
Standard
 70
     0
 40
0.0
 41
1.0
 50
0.0
 71
     0
 42
3.5
  3
txt
  4

  0
ENDTAB
  0
TABLE
  2
VIEW
  5
6
330
0
100
AcDbSymbolTable
 70
     0
  0
ENDTAB
  0
TABLE
  2
UCS
  5
7
330
0
100
AcDbSymbolTable
 70
     0
  0
ENDTAB
  0
TABLE
  2
APPID
  5
9
330
0
100
AcDbSymbolTable
 70
     1
  0
APPID
  5
12
330
9
100
AcDbSymbolTableRecord
100
AcDbRegAppTableRecord
  2
ACAD
 70
     0
  0
ENDTAB
  0
TABLE
  2
DIMSTYLE
  5
A
330
0
100
AcDbSymbolTable
 70
     1
100
AcDbDimStyleTable
  0
DIMSTYLE
105
27
330
A
100
AcDbSymbolTableRecord
100
AcDbDimStyleTableRecord
  2
ISO-25
 70
     0
 41
2.5
 42
0.625
 43
3.75
 44
1.25
 73
     0
 74
     0
 77
     1
 78
     8
140
2.5
141
2.5
143
0.0393700787
147
0.625
171
     3
172
     1
178
     0
271
     2
272
     2
274
     3
278
    44
283
     0
284
     8
340
11
  0
ENDTAB
  0
TABLE
  2
BLOCK_RECORD
  5
1
330
0
100
AcDbSymbolTable
 70
     2
  0
BLOCK_RECORD
  5
1F
330
1
100
AcDbSymbolTableRecord
100
AcDbBlockTableRecord
  2
*Model_Space
340
22
  0
BLOCK_RECORD
  5
1B
330
1
100
AcDbSymbolTableRecord
100
AcDbBlockTableRecord
  2
*Paper_Space
340
1E
  0
BLOCK_RECORD
  5
23
330
1
100
AcDbSymbolTableRecord
100
AcDbBlockTableRecord
  2
*Paper_Space0
340
26
  0
BLOCK_RECORD
  5
88
330
1
100
AcDbSymbolTableRecord
100
AcDbBlockTableRecord
  2
SW_CENTERMARKSYMBOL_0
340
0
102
{BLKREFS
331
93
102
}
  0
ENDTAB
  0
ENDSEC
  0
SECTION
  2
BLOCKS
  0
BLOCK
  5
20
330
1F
100
AcDbEntity
  8
0
100
AcDbBlockBegin
  2
*Model_Space
 70
     0
 10
0.0
 20
0.0
 30
0.0
  3
*Model_Space
  1

  0
ENDBLK
  5
21
330
1F
100
AcDbEntity
  8
0
100
AcDbBlockEnd
  0
BLOCK
  5
1C
330
1B
100
AcDbEntity
 67
     1
  8
0
100
AcDbBlockBegin
  2
*Paper_Space
 70
     0
 10
0.0
 20
0.0
 30
0.0
  3
*Paper_Space
  1

  0
ENDBLK
  5
1D
330
1B
100
AcDbEntity
 67
     1
  8
0
100
AcDbBlockEnd
  0
BLOCK
  5
24
330
23
100
AcDbEntity
  8
0
100
AcDbBlockBegin
  2
*Paper_Space0
 70
     0
 10
0.0
 20
0.0
 30
0.0
  3
*Paper_Space0
  1

  0
ENDBLK
  5
25
330
23
100
AcDbEntity
  8
0
100
AcDbBlockEnd
  0
BLOCK
  5
89
330
88
100
AcDbEntity
  8
0
100
AcDbBlockBegin
  2
SW_CENTERMARKSYMBOL_0
 70
     0
 10
0.0
 20
0.0
 30
0.0
  3
SW_CENTERMARKSYMBOL_0
  1

  0
LINE
  5
8B
330
88
100
AcDbEntity
  8
FORMAT
 62
     0
100
AcDbLine
 10
0.0
 20
0.0
 30
0.0
 11
0.0
 21
2.5
 31
0.0
  0
LINE
  5
8C
330
88
100
AcDbEntity
  8
FORMAT
 62
     0
100
AcDbLine
 10
0.0
 20
0.0
 30
0.0
 11
-2.5
 21
0.0
 31
0.0
  0
LINE
  5
8D
330
88
100
AcDbEntity
  8
FORMAT
 62
     0
100
AcDbLine
 10
0.0
 20
0.0
 30
0.0
 11
0.0
 21
-2.5
 31
0.0
  0
LINE
  5
8E
330
88
100
AcDbEntity
  8
FORMAT
 62
     0
100
AcDbLine
 10
0.0
 20
0.0
 30
0.0
 11
2.5
 21
0.0
 31
0.0
  0
LINE
  5
8F
330
88
100
AcDbEntity
  8
FORMAT
 62
     0
100
AcDbLine
 10
0.0
 20
5.0
 30
0.0
 11
0.0
 21
92.5
 31
0.0
  0
LINE
  5
90
330
88
100
AcDbEntity
  8
FORMAT
 62
     0
100
AcDbLine
 10
-5.0
 20
0.0
 30
0.0
 11
-92.5
 21
0.0
 31
0.0
  0
LINE
  5
91
330
88
100
AcDbEntity
  8
FORMAT
 62
     0
100
AcDbLine
 10
0.0
 20
-5.0
 30
0.0
 11
0.0
 21
-92.5
 31
0.0
  0
LINE
  5
92
330
88
100
AcDbEntity
  8
FORMAT
 62
     0
100
AcDbLine
 10
5.0
 20
0.0
 30
0.0
 11
92.5
 21
0.0
 31
0.0
  0
ENDBLK
  5
8A
330
88
100
AcDbEntity
  8
0
100
AcDbBlockEnd
  0
ENDSEC
  0
SECTION
  2
ENTITIES
  0
CIRCLE
  5
83
330
1F
100
AcDbEntity
  8
0
  6
Continuous
 62
     7
370
    25
100
AcDbCircle
 10
139.395004093
 20
107.5851680021
 30
0.0
 40
90.0
  0
CIRCLE
  5
84
330
1F
100
AcDbEntity
  8
0
  6
Continuous
 62
     7
370
    25
100
AcDbCircle
 10
139.395004093
 20
107.5851680021
 30
0.0
 40
73.60000000000001
  0
CIRCLE
  5
85
330
1F
100
AcDbEntity
  8
0
  6
Continuous
 62
     7
370
    25
100
AcDbCircle
 10
139.395004093
 20
107.5851680021
 30
0.0
 40
73.1824544676052
  0
CIRCLE
  5
86
330
1F
100
AcDbEntity
  8
0
  6
Continuous
 62
     7
370
    25
100
AcDbCircle
 10
139.395004093
 20
107.5851680021
 30
0.0
 40
51.51754553239483
  0
CIRCLE
  5
87
330
1F
100
AcDbEntity
  8
0
  6
Continuous
 62
     7
370
    25
100
AcDbCircle
 10
139.395004093
 20
107.5851680021
 30
0.0
 40
51.10000000000002
  0
INSERT
  5
93
330
1F
100
AcDbEntity
  8
FORMAT
 62
     7
100
AcDbBlockReference
  2
SW_CENTERMARKSYMBOL_0
 10
139.395004093
 20
107.5851680021
 30
0.0
  0
ARC
  5
94
330
1F
100
AcDbEntity
  8
0
  6
Continuous
 62
     7
370
    25
100
AcDbCircle
 10
-164.5825085705
 20
195.5851680021
 30
0.0
 40
2.0
100
AcDbArc
 50
66.4183488551
 51
90.0
  0
ARC
  5
95
330
1F
100
AcDbEntity
  8
0
  6
Continuous
 62
     7
370
    25
100
AcDbCircle
 10
-164.5825085705
 20
19.5851680021
 30
0.0
 40
2.0
100
AcDbArc
 50
270.0
 51
293.5816511449
  0
LINE
  5
96
330
1F
100
AcDbEntity
  8
0
  6
Continuous
 62
     7
370
    25
100
AcDbLine
 10
-164.5825094644
 20
197.5851715784
 30
0.0
 11
-269.1650184903
 21
197.5851715784
 31
0.0
  0
LINE
  5
97
330
1F
100
AcDbEntity
  8
0
  6
Continuous
 62
     7
370
    25
100
AcDbLine
 10
-269.1650184903
 20
17.5851644258
 30
0.0
 11
-164.5825094644
 21
17.5851644258
 31
0.0
  0
LINE
  5
98
330
1F
100
AcDbEntity
  8
0
  6
Continuous
 62
     7
370
    25
100
AcDbLine
 10
-163.782397202
 20
17.7521840911
 30
0.0
 11
-101.5476453219
 21
44.9181483369
 31
0.0
  0
LINE
  5
99
330
1F
100
AcDbEntity
  8
0
  6
Continuous
 62
     7
370
    25
100
AcDbLine
 10
-101.5476453219
 20
170.2521876674
 30
0.0
 11
-163.782397202
 21
197.4181519132
 31
0.0
  0
ARC
  5
9A
330
1F
100
AcDbEntity
  8
0
  6
Continuous
 62
     7
370
    25
100
AcDbCircle
 10
-100.7475334603
 20
172.0851680021
 30
0.0
 40
2.000000000000007
100
AcDbArc
 50
246.4183488552
 51
270.0
  0
ARC
  5
9B
330
1F
100
AcDbEntity
  8
0
  6
Continuous
 62
     7
370
    25
100
AcDbCircle
 10
-100.7475334603
 20
43.0851680021
 30
0.0
 40
2.0
100
AcDbArc
 50
90.0
 51
113.5816511448
  0
LINE
  5
9C
330
1F
100
AcDbEntity
  8
0
  6
Continuous
 62
     7
370
    25
100
AcDbLine
 10
-14.1650232587
 20
170.0851680021
 30
0.0
 11
-100.7475349221
 21
170.0851680021
 31
0.0
  0
LINE
  5
9D
330
1F
100
AcDbEntity
  8
0
  6
Continuous
 62
     7
370
    25
100
AcDbLine
 10
-100.7475349221
 20
45.0851680021
 30
0.0
 11
-14.1650232587
 21
45.0851680021
 31
0.0
  0
LINE
  5
9E
330
1F
100
AcDbEntity
  8
0
  6
Continuous
 62
     7
370
    25
100
AcDbLine
 10
-269.1650184903
 20
197.5851715784
 30
0.0
 11
-269.1650184903
 21
17.5851644258
 31
0.0
  0
LINE
  5
9F
330
1F
100
AcDbEntity
  8
0
  6
Continuous
 62
     7
370
    25
100
AcDbLine
 10
-14.1650232587
 20
170.0851680021
 30
0.0
 11
-14.1650232587
 21
45.0851680021
 31
0.0
  0
LINE
  5
A0
330
1F
100
AcDbEntity
  8
0
  6
Continuous
 62
     1
370
    25
100
AcDbLine
 10
-163.782397202
 20
197.4181519132
 30
0.0
 11
-163.782397202
 21
17.7521840911
 31
0.0
  0
LINE
  5
A1
330
1F
100
AcDbEntity
  8
0
  6
Continuous
 62
     1
370
    25
100
AcDbLine
 10
-164.5825094644
 20
197.5851715784
 30
0.0
 11
-164.5825094644
 21
17.5851644258
 31
0.0
  0
LINE
  5
A2
330
1F
100
AcDbEntity
  8
0
  6
Continuous
 62
     1
370
    25
100
AcDbLine
 10
-101.5476453219
 20
170.2521876674
 30
0.0
 11
-101.5476453219
 21
44.9181483369
 31
0.0
  0
LINE
  5
A3
330
1F
100
AcDbEntity
  8
0
  6
Continuous
 62
     1
370
    25
100
AcDbLine
 10
-100.7475349221
 20
170.0851680021
 30
0.0
 11
-100.7475349221
 21
45.0851680021
 31
0.0
  0
ARC
  5
A4
330
1F
100
AcDbEntity
  8
0
  6
Continuous
 62
     7
370
    25
100
AcDbCircle
 10
443.812786565
 20
19.5851680021
 30
0.0
 40
2.0
100
AcDbArc
 50
246.4183488552
 51
270.0
  0
ARC
  5
A5
330
1F
100
AcDbEntity
  8
0
  6
Continuous
 62
     7
370
    25
100
AcDbCircle
 10
443.812786565
 20
195.5851680021
 30
0.0
 40
2.0
100
AcDbArc
 50
90.0
 51
113.5816511449
  0
LINE
  5
A6
330
1F
100
AcDbEntity
  8
0
  6
Continuous
 62
     7
370
    25
100
AcDbLine
 10
443.8127874589
 20
17.5851644258
 30
0.0
 11
548.3952964849
 21
17.5851644258
 31
0.0
  0
LINE
  5
A7
330
1F
100
AcDbEntity
  8
0
  6
Continuous
 62
     7
370
    25
100
AcDbLine
 10
548.3952964849
 20
197.5851715784
 30
0.0
 11
443.8127874589
 21
197.5851715784
 31
0.0
  0
LINE
  5
A8
330
1F
100
AcDbEntity
  8
0
  6
Continuous
 62
     7
370
    25
100
AcDbLine
 10
443.0126751966
 20
197.4181519132
 30
0.0
 11
380.7779233164
 21
170.2521876674
 31
0.0
  0
LINE
  5
A9
330
1F
100
AcDbEntity
  8
0
  6
Continuous
 62
     7
370
    25
100
AcDbLine
 10
380.7779233164
 20
44.9181483369
 30
0.0
 11
443.0126751966
 21
17.7521840911
 31
0.0
  0
ARC
  5
AA
330
1F
100
AcDbEntity
  8
0
  6
Continuous
 62
     7
370
    25
100
AcDbCircle
 10
379.9778114548
 20
43.0851680021
 30
0.0
 40
2.000000000000006
100
AcDbArc
 50
66.4183488552
 51
90.0
  0
ARC
  5
AB
330
1F
100
AcDbEntity
  8
0
  6
Continuous
 62
     7
370
    25
100
AcDbCircle
 10
379.9778114548
 20
172.0851680021
 30
0.0
 40
2.000000000000012
100
AcDbArc
 50
270.0
 51
293.5816511449
  0
LINE
  5
AC
330
1F
100
AcDbEntity
  8
0
  6
Continuous
 62
     7
370
    25
100
AcDbLine
 10
293.3953012532
 20
45.0851680021
 30
0.0
 11
379.9778129167
 21
45.0851680021
 31
0.0
  0
LINE
  5
AD
330
1F
100
AcDbEntity
  8
0
  6
Continuous
 62
     7
370
    25
100
AcDbLine
 10
379.9778129167
 20
170.0851680021
 30
0.0
 11
293.3953012532
 21
170.0851680021
 31
0.0
  0
LINE
  5
AE
330
1F
100
AcDbEntity
  8
0
  6
Continuous
 62
     7
370
    25
100
AcDbLine
 10
548.3952964849
 20
107.5851680021
 30
0.0
 11
548.3952964849
 21
197.5851715784
 31
0.0
  0
LINE
  5
AF
330
1F
100
AcDbEntity
  8
0
  6
Continuous
 62
     7
370
    25
100
AcDbLine
 10
548.3952964849
 20
17.5851644258
 30
0.0
 11
548.3952964849
 21
107.5851680021
 31
0.0
  0
LINE
  5
B0
330
1F
100
AcDbEntity
  8
0
  6
Continuous
 62
     7
370
    25
100
AcDbLine
 10
293.3953012532
 20
107.5851680021
 30
0.0
 11
293.3953012532
 21
170.0851680021
 31
0.0
  0
LINE
  5
B1
330
1F
100
AcDbEntity
  8
0
  6
Continuous
 62
     7
370
    25
100
AcDbLine
 10
293.3953012532
 20
45.0851680021
 30
0.0
 11
293.3953012532
 21
107.5851680021
 31
0.0
  0
LINE
  5
B2
330
1F
100
AcDbEntity
  8
0
  6
Continuous
 62
     1
370
    25
100
AcDbLine
 10
443.0126751966
 20
107.5851680021
 30
0.0
 11
443.0126751966
 21
197.4181519132
 31
0.0
  0
LINE
  5
B3
330
1F
100
AcDbEntity
  8
0
  6
Continuous
 62
     1
370
    25
100
AcDbLine
 10
443.0126751966
 20
17.7521840911
 30
0.0
 11
443.0126751966
 21
107.5851680021
 31
0.0
  0
LINE
  5
B4
330
1F
100
AcDbEntity
  8
0
  6
Continuous
 62
     1
370
    25
100
AcDbLine
 10
443.8127874589
 20
107.5851680021
 30
0.0
 11
443.8127874589
 21
197.5851715784
 31
0.0
  0
LINE
  5
B5
330
1F
100
AcDbEntity
  8
0
  6
Continuous
 62
     1
370
    25
100
AcDbLine
 10
443.8127874589
 20
17.5851644258
 30
0.0
 11
443.8127874589
 21
107.5851680021
 31
0.0
  0
LINE
  5
B6
330
1F
100
AcDbEntity
  8
0
  6
Continuous
 62
     1
370
    25
100
AcDbLine
 10
380.7779233164
 20
107.5851680021
 30
0.0
 11
380.7779233164
 21
170.2521876674
 31
0.0
  0
LINE
  5
B7
330
1F
100
AcDbEntity
  8
0
  6
Continuous
 62
     1
370
    25
100
AcDbLine
 10
380.7779233164
 20
44.9181483369
 30
0.0
 11
380.7779233164
 21
107.5851680021
 31
0.0
  0
LINE
  5
B8
330
1F
100
AcDbEntity
  8
0
  6
Continuous
 62
     1
370
    25
100
AcDbLine
 10
379.9778129167
 20
107.5851680021
 30
0.0
 11
379.9778129167
 21
170.0851680021
 31
0.0
  0
LINE
  5
B9
330
1F
100
AcDbEntity
  8
0
  6
Continuous
 62
     1
370
    25
100
AcDbLine
 10
379.9778129167
 20
45.0851680021
 30
0.0
 11
379.9778129167
 21
107.5851680021
 31
0.0
  0
ARC
  5
BA
330
1F
100
AcDbEntity
  8
0
  6
Continuous
 62
     7
370
    25
100
AcDbCircle
 10
227.395004093
 20
376.6016528519
 30
0.0
 40
2.000000000000012
100
AcDbArc
 50
336.4183488552
 51
0.0
  0
ARC
  5
BB
330
1F
100
AcDbEntity
  8
0
  6
Continuous
 62
     7
370
    25
100
AcDbCircle
 10
51.395004093
 20
376.6016528519
 30
0.0
 40
2.0
100
AcDbArc
 50
180.0
 51
203.5816511449
  0
LINE
  5
BC
330
1F
100
AcDbEntity
  8
0
  6
Continuous
 62
     7
370
    25
100
AcDbLine
 10
229.3950076693
 20
376.6016537458
 30
0.0
 11
229.3950076693
 21
481.1841627717
 31
0.0
  0
LINE
  5
BD
330
1F
100
AcDbEntity
  8
0
  6
Continuous
 62
     7
370
    25
100
AcDbLine
 10
49.3950005168
 20
481.1841627717
 30
0.0
 11
49.3950005168
 21
376.6016537458
 31
0.0
  0
LINE
  5
BE
330
1F
100
AcDbEntity
  8
0
  6
Continuous
 62
     7
370
    25
100
AcDbLine
 10
49.562020182
 20
375.8015414834
 30
0.0
 11
76.7279844278
 21
313.5667896032
 31
0.0
  0
LINE
  5
BF
330
1F
100
AcDbEntity
  8
0
  6
Continuous
 62
     7
370
    25
100
AcDbLine
 10
202.0620237583
 20
313.5667896032
 30
0.0
 11
229.2279880041
 21
375.8015414834
 31
0.0
  0
ARC
  5
C0
330
1F
100
AcDbEntity
  8
0
  6
Continuous
 62
     7
370
    25
100
AcDbCircle
 10
203.895004093
 20
312.7666777417
 30
0.0
 40
2.0
100
AcDbArc
 50
156.4183488551
 51
180.0
  0
ARC
  5
C1
330
1F
100
AcDbEntity
  8
0
  6
Continuous
 62
     7
370
    25
100
AcDbCircle
 10
74.895004093
 20
312.7666777417
 30
0.0
 40
2.0
100
AcDbArc
 50
0.0
 51
23.5816511448
  0
LINE
  5
C2
330
1F
100
AcDbEntity
  8
0
  6
Continuous
 62
     7
370
    25
100
AcDbLine
 10
201.895004093
 20
226.1841675401
 30
0.0
 11
201.895004093
 21
312.7666792035
 31
0.0
  0
LINE
  5
C3
330
1F
100
AcDbEntity
  8
0
  6
Continuous
 62
     7
370
    25
100
AcDbLine
 10
76.895004093
 20
312.7666792035
 30
0.0
 11
76.895004093
 21
226.1841675401
 31
0.0
  0
LINE
  5
C4
330
1F
100
AcDbEntity
  8
0
  6
Continuous
 62
     7
370
    25
100
AcDbLine
 10
229.3950076693
 20
481.1841627717
 30
0.0
 11
49.3950005168
 21
481.1841627717
 31
0.0
  0
LINE
  5
C5
330
1F
100
AcDbEntity
  8
0
  6
Continuous
 62
     7
370
    25
100
AcDbLine
 10
201.895004093
 20
226.1841675401
 30
0.0
 11
76.895004093
 21
226.1841675401
 31
0.0
  0
LINE
  5
C6
330
1F
100
AcDbEntity
  8
0
  6
Continuous
 62
     1
370
    25
100
AcDbLine
 10
229.2279880041
 20
375.8015414834
 30
0.0
 11
49.562020182
 21
375.8015414834
 31
0.0
  0
LINE
  5
C7
330
1F
100
AcDbEntity
  8
0
  6
Continuous
 62
     1
370
    25
100
AcDbLine
 10
229.3950076693
 20
376.6016537458
 30
0.0
 11
49.3950005168
 21
376.6016537458
 31
0.0
  0
LINE
  5
C8
330
1F
100
AcDbEntity
  8
0
  6
Continuous
 62
     1
370
    25
100
AcDbLine
 10
202.0620237583
 20
313.5667896032
 30
0.0
 11
76.7279844278
 21
313.5667896032
 31
0.0
  0
LINE
  5
C9
330
1F
100
AcDbEntity
  8
0
  6
Continuous
 62
     1
370
    25
100
AcDbLine
 10
201.895004093
 20
312.7666792035
 30
0.0
 11
76.895004093
 21
312.7666792035
 31
0.0
  0
ARC
  5
CA
330
1F
100
AcDbEntity
  8
0
  6
Continuous
 62
     7
370
    25
100
AcDbCircle
 10
51.395004093
 20
-169.4308415522
 30
0.0
 40
2.0
100
AcDbArc
 50
156.4183488551
 51
180.0
  0
ARC
  5
CB
330
1F
100
AcDbEntity
  8
0
  6
Continuous
 62
     7
370
    25
100
AcDbCircle
 10
227.395004093
 20
-169.4308415522
 30
0.0
 40
2.000000000000012
100
AcDbArc
 50
0.0
 51
23.5816511448
  0
LINE
  5
CC
330
1F
100
AcDbEntity
  8
0
  6
Continuous
 62
     7
370
    25
100
AcDbLine
 10
49.3950005168
 20
-169.4308424461
 30
0.0
 11
49.3950005168
 21
-274.013351472
 31
0.0
  0
LINE
  5
CD
330
1F
100
AcDbEntity
  8
0
  6
Continuous
 62
     7
370
    25
100
AcDbLine
 10
229.3950076693
 20
-274.013351472
 30
0.0
 11
229.3950076693
 21
-169.4308424461
 31
0.0
  0
LINE
  5
CE
330
1F
100
AcDbEntity
  8
0
  6
Continuous
 62
     7
370
    25
100
AcDbLine
 10
229.2279880041
 20
-168.6307301837
 30
0.0
 11
202.0620237583
 21
-106.3959783036
 31
0.0
  0
LINE
  5
CF
330
1F
100
AcDbEntity
  8
0
  6
Continuous
 62
     7
370
    25
100
AcDbLine
 10
76.7279844278
 20
-106.3959783036
 30
0.0
 11
49.562020182
 21
-168.6307301837
 31
0.0
  0
ARC
  5
D0
330
1F
100
AcDbEntity
  8
0
  6
Continuous
 62
     7
370
    25
100
AcDbCircle
 10
74.895004093
 20
-105.595866442
 30
0.0
 40
2.0
100
AcDbArc
 50
336.4183488552
 51
0.0
  0
ARC
  5
D1
330
1F
100
AcDbEntity
  8
0
  6
Continuous
 62
     7
370
    25
100
AcDbCircle
 10
203.895004093
 20
-105.595866442
 30
0.0
 40
2.0
100
AcDbArc
 50
180.0
 51
203.5816511449
  0
LINE
  5
D2
330
1F
100
AcDbEntity
  8
0
  6
Continuous
 62
     7
370
    25
100
AcDbLine
 10
76.895004093
 20
-19.0133562404
 30
0.0
 11
76.895004093
 21
-105.5958679039
 31
0.0
  0
LINE
  5
D3
330
1F
100
AcDbEntity
  8
0
  6
Continuous
 62
     7
370
    25
100
AcDbLine
 10
201.895004093
 20
-105.5958679039
 30
0.0
 11
201.895004093
 21
-19.0133562404
 31
0.0
  0
LINE
  5
D4
330
1F
100
AcDbEntity
  8
0
  6
Continuous
 62
     7
370
    25
100
AcDbLine
 10
49.3950005168
 20
-274.013351472
 30
0.0
 11
229.3950076693
 21
-274.013351472
 31
0.0
  0
LINE
  5
D5
330
1F
100
AcDbEntity
  8
0
  6
Continuous
 62
     7
370
    25
100
AcDbLine
 10
76.895004093
 20
-19.0133562404
 30
0.0
 11
201.895004093
 21
-19.0133562404
 31
0.0
  0
LINE
  5
D6
330
1F
100
AcDbEntity
  8
0
  6
Continuous
 62
     1
370
    25
100
AcDbLine
 10
49.562020182
 20
-168.6307301837
 30
0.0
 11
229.2279880041
 21
-168.6307301837
 31
0.0
  0
LINE
  5
D7
330
1F
100
AcDbEntity
  8
0
  6
Continuous
 62
     1
370
    25
100
AcDbLine
 10
49.3950005168
 20
-169.4308424461
 30
0.0
 11
229.3950076693
 21
-169.4308424461
 31
0.0
  0
LINE
  5
D8
330
1F
100
AcDbEntity
  8
0
  6
Continuous
 62
     1
370
    25
100
AcDbLine
 10
76.7279844278
 20
-106.3959783036
 30
0.0
 11
202.0620237583
 21
-106.3959783036
 31
0.0
  0
LINE
  5
D9
330
1F
100
AcDbEntity
  8
0
  6
Continuous
 62
     1
370
    25
100
AcDbLine
 10
76.895004093
 20
-105.5958679039
 30
0.0
 11
201.895004093
 21
-105.5958679039
 31
0.0
  0
LINE
  5
DA
330
1F
100
AcDbEntity
  8
0
  6
Continuous
 62
     7
370
    25
100
AcDbLine
 10
448.5687760873
 20
-54.0633992194
 30
0.0
 11
374.6177747616
 21
-11.3723948576
 31
0.0
  0
LINE
  5
DB
330
1F
100
AcDbEntity
  8
0
  6
Continuous
 62
     7
370
    25
100
AcDbLine
 10
284.6250862513
 20
-167.2611915696
 30
0.0
 11
358.576087577
 21
-209.9521959314
 31
0.0
  0
SPLINE
  5
DC
330
1F
100
AcDbEntity
  8
0
  6
Continuous
 62
     7
370
    25
100
AcDbSpline
210
0.0
220
0.0
230
1.0
 70
     8
 71
     3
 72
    11
 73
     7
 74
     0
 42
0.000000001
 43
0.00000001
 40
0.0
 40
0.0
 40
0.0
 40
0.0
 40
0.0868701009005874
 40
0.4267325553563509
 40
0.7655872352406647
 40
1.0
 40
1.0
 40
1.0
 40
1.0
 10
457.9491578160232
 20
-62.30728173602053
 30
0.0
 10
457.8074307029011
 20
-62.11637997925202
 30
0.0
 10
457.1112236935975
 20
-61.17861205169929
 30
0.0
 10
455.719687870531
 20
-59.66972933436407
 30
0.0
 10
453.9937682497919
 20
-57.95923555977023
 30
0.0
 10
452.8123722359708
 20
-57.02530720553663
 30
0.0
 10
452.3292917672245
 20
-56.64341786287714
 30
0.0
  0
SPLINE
  5
DD
330
1F
100
AcDbEntity
  8
0
  6
Continuous
 62
     7
370
    25
100
AcDbSpline
210
0.0
220
0.0
230
1.0
 70
     8
 71
     3
 72
    11
 73
     7
 74
     0
 42
0.000000001
 43
0.00000001
 40
0.0
 40
0.0
 40
0.0
 40
0.0
 40
0.3091571279517057
 40
0.6390784001519184
 40
0.9696792767449278
 40
1.0
 40
1.0
 40
1.0
 40
1.0
 10
362.712973297028
 20
-211.9457798943482
 30
0.0
 10
363.4912866429335
 20
-212.2385675364108
 30
0.0
 10
365.1001877580838
 20
-212.84380752914
 30
0.0
 10
367.6635510573129
 20
-213.4931907886627
 30
0.0
 10
369.5217547292511
 20
-213.8827183617755
 30
0.0
 10
370.5296398829627
 20
-213.9848218883437
 30
0.0
 10
370.6143114759942
 20
-213.9933995206432
 30
0.0
  0
LINE
  5
DE
330
1F
100
AcDbEntity
  8
0
  6
Continuous
 62
     7
370
    25
100
AcDbLine
 10
375.2847486393
 20
-214.3395246447
 30
0.0
 11
428.0167965929
 21
-214.945227766
 31
0.0
  0
LINE
  5
DF
330
1F
100
AcDbEntity
  8
0
  6
Continuous
 62
     7
370
    25
100
AcDbLine
 10
487.6186307057
 20
-111.7006367523
 30
0.0
 11
460.7237968061
 21
-66.3387160624
 31
0.0
  0
LINE
  5
E0
330
1F
100
AcDbEntity
  8
0
  6
Continuous
 62
     7
370
    25
100
AcDbLine
 10
541.1811164548
 20
-139.2807724625
 30
0.0
 11
484.6071145732
 21
-106.6212963527
 31
0.0
  0
LINE
  5
E1
330
1F
100
AcDbEntity
  8
0
  6
Continuous
 62
     7
370
    25
100
AcDbLine
 10
422.1121943381
 20
-214.8774024769
 30
0.0
 11
478.6861962197
 21
-247.5368785866
 31
0.0
  0
LWPOLYLINE
  5
E2
330
1F
100
AcDbEntity
  8
0
  6
Continuous
 62
     7
370
    25
100
AcDbPolyline
 90
      121
 70
   128
 43
0.0
 10
265.9818176708
 20
-126.0551597055
 10
266.0690353055
 20
-122.1587100286
 10
266.330445865
 20
-118.1722432137
 10
266.7653275847
 20
-114.106687425
 10
267.3725003527
 20
-109.9731806716
 10
268.1502888318
 20
-105.7830590165
 10
269.0965646062
 20
-101.5478060102
 10
270.2087356447
 20
-97.2790260732
 10
271.4837515691
 20
-92.9884254849
 10
272.9181247278
 20
-88.6877561117
 10
274.507909122
 20
-84.3888138837
 10
276.2487636263
 20
-80.1033794845
 10
278.1359045735
 20
-75.8431970544
 10
280.1641637061
 20
-71.6199437763
 10
282.3279829087
 20
-67.4451994578
 10
284.6214300122
 20
-63.330400904
 10
287.0382198678
 20
-59.2868297528
 10
289.5717248837
 20
-55.3255698892
 10
292.215006635
 20
-51.4574770304
 10
294.9608158635
 20
-47.6931543909
 10
297.8016240886
 20
-44.0429161828
 10
300.7296525826
 20
-40.5167769725
 10
303.7368697365
 20
-37.1243862805
 10
306.8150332073
 20
-33.8750590038
 10
309.9557096742
 20
-30.7776910064
 10
313.1502866919
 20
-27.8407766111
 10
316.3900108869
 20
-25.072362215
 10
319.6660017865
 20
-22.4800322217
 10
322.9692801363
 20
-20.0709048622
 10
326.2907906201
 20
-17.8515704088
 10
329.6214305064
 20
-15.8281172237
 10
332.9520703928
 20
-14.0060954493
 10
336.2735808766
 20
-12.390495527
 10
339.5768592264
 20
-10.9857388846
 10
342.852850126
 20
-9.7956902953
 10
346.092574321
 20
-8.8235987549
 10
349.2871513387
 20
-8.0721330348
 10
352.4278278055
 20
-7.5433531684
 10
355.5059912764
 20
-7.2387085501
 10
358.5132084303
 20
-7.159040221
 10
361.4412369242
 20
-7.304549691
 10
364.2820451493
 20
-7.6748605376
 10
367.0278543779
 20
-8.2689393223
 10
369.6711361291
 20
-9.0851640319
 10
372.204641145
 20
-10.1213012671
 10
374.6214310007
 20
-11.3745062457
 10
376.9148781042
 20
-12.8413471371
 10
379.0786973068
 20
-14.517798982
 10
381.1069564394
 20
-16.3992741116
 10
382.9940973866
 20
-18.4806099823
 10
384.7349518909
 20
-20.7560965537
 10
386.3247362851
 20
-23.2195127905
 10
387.7591094437
 20
-25.8640901656
 10
389.0341253682
 20
-28.6825887021
 10
390.1462964067
 20
-31.6672832906
 10
391.0925721811
 20
-34.8099895433
 10
391.8703606602
 20
-38.1020957351
 10
392.4775334282
 20
-41.5345757324
 10
392.9124151479
 20
-45.0980277751
 10
393.1738257074
 20
-48.7826763824
 10
393.261043342
 20
-52.5784267217
 10
393.1738257074
 20
-56.4748763986
 10
392.9124151479
 20
-60.4613432135
 10
392.4775334282
 20
-64.5268990022
 10
391.8703606602
 20
-68.6604057556
 10
391.0925721811
 20
-72.8505274107
 10
390.1462964067
 20
-77.085780417
 10
389.0341253682
 20
-81.354560354
 10
387.7591094437
 20
-85.6451609423
 10
386.3247362851
 20
-89.9458303155
 10
384.7349518909
 20
-94.2447725436
 10
382.9940973866
 20
-98.5302069427
 10
381.1069564394
 20
-102.7903893729
 10
379.0786973068
 20
-107.0136426509
 10
376.9148781042
 20
-111.1883869694
 10
374.6214310007
 20
-115.3031855232
 10
372.204641145
 20
-119.3467566745
 10
369.6711361291
 20
-123.3080165381
 10
367.0278543779
 20
-127.1761093968
 10
364.2820451493
 20
-130.9404320363
 10
361.4412369242
 20
-134.5906702444
 10
358.5132084303
 20
-138.1168094547
 10
355.5059912764
 20
-141.5092001467
 10
352.4278278055
 20
-144.7585274234
 10
349.2871513387
 20
-147.8558954208
 10
346.092574321
 20
-150.7928098161
 10
342.852850126
 20
-153.5612242123
 10
339.5768592264
 20
-156.1535542055
 10
336.2735808766
 20
-158.562681565
 10
332.9520703928
 20
-160.7820160184
 10
329.6214305064
 20
-162.8054692035
 10
326.2907906201
 20
-164.627490978
 10
322.9692801363
 20
-166.2430909002
 10
319.6660017865
 20
-167.6478475427
 10
316.3900108869
 20
-168.8378961319
 10
313.1502866919
 20
-169.8099876724
 10
309.9557096742
 20
-170.5614533924
 10
306.8150332073
 20
-171.0902332588
 10
303.7368697365
 20
-171.3948778772
 10
300.7296525826
 20
-171.4745462062
 10
297.8016240886
 20
-171.3290367363
 10
294.9608158635
 20
-170.9587258897
 10
292.215006635
 20
-170.3646471049
 10
289.5717248837
 20
-169.5484223953
 10
287.0382198678
 20
-168.5122851601
 10
284.6214300122
 20
-167.2590801816
 10
282.3279829087
 20
-165.7922392901
 10
280.1641637061
 20
-164.1157874452
 10
278.1359045735
 20
-162.2343123156
 10
276.2487636263
 20
-160.152976445
 10
274.507909122
 20
-157.8774898736
 10
272.9181247278
 20
-155.4140736368
 10
271.4837515691
 20
-152.7694962616
 10
270.2087356447
 20
-149.9509977252
 10
269.0965646062
 20
-146.9663031367
 10
268.1502888318
 20
-143.823596884
 10
267.3725003527
 20
-140.5314906921
 10
266.7653275847
 20
-137.0990106949
 10
266.330445865
 20
-133.5355586521
 10
266.0690353055
 20
-129.8509100449
 10
265.9818176708
 20
-126.0551597055
  0
LWPOLYLINE
  5
E3
330
1F
100
AcDbEntity
  8
0
  6
Continuous
 62
     7
370
    25
100
AcDbPolyline
 90
      109
 70
   128
 43
0.0
 10
277.5783702563
 20
-119.3606123954
 10
277.6664202912
 20
-115.8154289711
 10
277.9302700996
 20
-112.1805821749
 10
278.3690240609
 20
-108.4683727901
 10
278.9811964988
 20
-104.6913631441
 10
279.7647274861
 20
-100.8623250179
 10
280.7169512345
 20
-96.9942255745
 10
281.8346540469
 20
-93.1001459951
 10
283.1140532435
 20
-89.1932647465
 10
284.5508182359
 20
-85.2868013094
 10
286.1400889653
 20
-81.3939751147
 10
287.8764864404
 20
-77.5279568748
 10
289.7541338099
 20
-73.701827521
 10
291.7666800706
 20
-69.9285340985
 10
293.9073158723
 20
-66.2208441403
 10
296.1687972254
 20
-62.5913046045
 10
298.5434718427
 20
-59.0521962486
 10
301.023302847
 20
-55.6154925673
 10
303.5999003814
 20
-52.2928232927
 10
306.2645479506
 20
-49.0954318112
 10
309.0082274462
 20
-46.0341363823
 10
311.8216560249
 20
-43.1192966812
 10
314.69531245
 20
-40.3607772998
 10
317.6194752877
 20
-37.7679013612
 10
320.584247931
 20
-35.3494604088
 10
323.5796000885
 20
-33.1136235346
 10
326.5953957725
 20
-31.0679577239
 10
329.6214305064
 20
-29.2193881253
 10
332.6474652404
 20
-27.5741723874
 10
335.6632609244
 20
-26.1378746171
 10
338.6586130819
 20
-24.9153515035
 10
341.6233857252
 20
-23.9107388236
 10
344.5475485628
 20
-23.1274482136
 10
347.421204988
 20
-22.568114509
 10
350.2346335667
 20
-22.2346387155
 10
352.9783130623
 20
-22.128149227
 10
355.6429606315
 20
-22.2490041109
 10
358.2195581658
 20
-22.5967971944
 10
360.6993891702
 20
-23.1703489421
 10
363.0740637875
 20
-23.9677163444
 10
365.3355451405
 20
-24.9862050878
 10
367.4761809422
 20
-26.2223695572
 10
369.4887272029
 20
-27.672026527
 10
371.3663745725
 20
-29.3302703727
 10
373.1027720476
 20
-31.1914867613
 10
374.692042777
 20
-33.2493800295
 10
376.1288077693
 20
-35.4969899161
 10
377.408206966
 20
-37.9267082945
 10
378.5259097784
 20
-40.5303156752
 10
379.4781335268
 20
-43.2990009804
 10
380.261664514
 20
-46.2233934847
 10
380.873836952
 20
-49.2936038785
 10
381.3125909133
 20
-52.4992387222
 10
381.5764407217
 20
-55.829451014
 10
381.6644907566
 20
-59.2729740319
 10
381.5764407217
 20
-62.8181574561
 10
381.3125909133
 20
-66.4530042524
 10
380.873836952
 20
-70.1652136371
 10
380.261664514
 20
-73.9422232831
 10
379.4781335268
 20
-77.7712614094
 10
378.5259097784
 20
-81.6393608527
 10
377.408206966
 20
-85.5334404322
 10
376.1288077693
 20
-89.4403216807
 10
374.692042777
 20
-93.3467851178
 10
373.1027720476
 20
-97.2396113126
 10
371.3663745725
 20
-101.1056295525
 10
369.4887272029
 20
-104.9317589063
 10
367.4761809422
 20
-108.7050523288
 10
365.3355451405
 20
-112.4127422869
 10
363.0740637875
 20
-116.0422818227
 10
360.6993891702
 20
-119.5813901786
 10
358.2195581658
 20
-123.0180938599
 10
355.6429606315
 20
-126.3407631346
 10
352.9783130623
 20
-129.538154616
 10
350.2346335667
 20
-132.599450045
 10
347.421204988
 20
-135.514289746
 10
344.5475485628
 20
-138.2728091275
 10
341.6233857252
 20
-140.865685066
 10
338.6586130819
 20
-143.2841260184
 10
335.6632609244
 20
-145.5199628926
 10
332.6474652404
 20
-147.5656287033
 10
329.6214305064
 20
-149.414198302
 10
326.5953957725
 20
-151.0594140398
 10
323.5796000885
 20
-152.4957118102
 10
320.584247931
 20
-153.7182349238
 10
317.6194752877
 20
-154.7228476036
 10
314.69531245
 20
-155.5061382137
 10
311.8216560249
 20
-156.0654719182
 10
309.0082274462
 20
-156.3989477117
 10
306.2645479506
 20
-156.5054372002
 10
303.5999003814
 20
-156.3845823163
 10
301.023302847
 20
-156.0367892328
 10
298.5434718427
 20
-155.4632374852
 10
296.1687972254
 20
-154.6658700828
 10
293.9073158723
 20
-153.6473813395
 10
291.7666800706
 20
-152.4112168701
 10
289.7541338099
 20
-150.9615599002
 10
287.8764864404
 20
-149.3033160545
 10
286.1400889653
 20
-147.4420996659
 10
284.5508182359
 20
-145.3842063978
 10
283.1140532435
 20
-143.1365965111
 10
281.8346540469
 20
-140.7068781328
 10
280.7169512345
 20
-138.103270752
 10
279.7647274861
 20
-135.3345854469
 10
278.9811964988
 20
-132.4101929426
 10
278.3690240609
 20
-129.3399825488
 10
277.9302700996
 20
-126.134347705
 10
277.6664202912
 20
-122.8041354132
 10
277.5783702563
 20
-119.3606123954
  0
ARC
  5
E4
330
1F
100
AcDbEntity
  8
0
  6
Continuous
 62
     7
370
    25
100
AcDbCircle
 10
433.4773609388
 20
-80.195414268
 30
0.0
 40
30.17669666621923
100
AcDbArc
 50
51.6923648177
 51
59.9932760782
  0
LWPOLYLINE
  5
E5
330
1F
100
AcDbEntity
  8
0
  6
Continuous
 62
     7
370
    25
100
AcDbPolyline
 90
        3
 70
   128
 43
0.0
 10
362.5359420453
 20
-211.8671940436
 10
360.9892211936
 20
-211.2032895219
 10
358.576087577
 20
-209.9521959314
  0
ARC
  5
E6
330
1F
100
AcDbEntity
  8
0
  6
Continuous
 62
     7
370
    25
100
AcDbCircle
 10
425.8113739859
 20
-87.1952992846
 30
0.0
 40
40.65915824490629
100
AcDbArc
 50
20.0583973851
 51
37.5320676529
  0
ARC
  5
E7
330
1F
100
AcDbEntity
  8
0
  6
Continuous
 62
     7
370
    25
100
AcDbCircle
 10
375.8889797818
 20
-173.9434997126
 30
0.0
 40
40.39605227844716
100
AcDbArc
 50
262.7143300776
 51
280.1014190026
  0
ARC
  5
E8
330
1F
100
AcDbEntity
  8
0
  6
Continuous
 62
     7
370
    25
100
AcDbCircle
 10
462.0842280937
 20
-126.754165719
 30
0.0
 40
29.64143132681228
100
AcDbArc
 50
22.154476129
 51
30.5210125113
  0
LWPOLYLINE
  5
E9
330
1F
100
AcDbEntity
  8
0
  6
Continuous
 62
     7
370
    25
100
AcDbPolyline
 90
        3
 70
   128
 43
0.0
 10
431.7382408272
 20
-214.7438421254
 10
429.2775629313
 20
-214.9308782612
 10
428.0167965929
 20
-214.945227766
  0
LWPOLYLINE
  5
EA
330
1F
100
AcDbEntity
  8
0
  6
Continuous
 62
     7
370
    25
100
AcDbPolyline
 90
       52
 70
   128
 43
0.0
 10
541.1811164548
 20
-139.2807724625
 10
542.1498222552
 20
-139.8757871673
 10
543.985852246
 20
-141.2207422525
 10
545.6874943761
 20
-142.7716591436
 10
547.2480314916
 20
-144.5224170049
 10
548.6613048842
 20
-146.4661087346
 10
549.9217406332
 20
-148.5950607392
 10
551.0243601422
 20
-150.9008724783
 10
551.9648143832
 20
-153.374442324
 10
552.7393891651
 20
-156.0060116679
 10
553.3450288415
 20
-158.7851930607
 10
553.779346847
 20
-161.7010158409
 10
554.0406230635
 20
-164.7419767049
 10
554.1278301614
 20
-167.8960720301
 10
554.0406230635
 20
-171.1508545273
 10
553.779346847
 20
-174.4934784898
 10
553.3450288415
 20
-177.9107541654
 10
552.7393891651
 20
-181.3891922445
 10
551.9648143832
 20
-184.9150665959
 10
551.0243601422
 20
-188.4744617957
 10
549.9217406332
 20
-192.0533309221
 10
548.6613048842
 20
-195.6375510662
 10
547.2480314916
 20
-199.2129735227
 10
545.6874943761
 20
-202.7654891861
 10
543.985852246
 20
-206.2810802614
 10
542.1498222552
 20
-209.745870452
 10
540.1866510275
 20
-213.1461827523
 10
538.1040830463
 20
-216.4686033236
 10
535.9103395813
 20
-219.7000179944
 10
533.6140791757
 20
-222.8276715725
 10
531.2243620848
 20
-225.8392218349
 10
528.750619983
 20
-228.7227874339
 10
526.2026164512
 20
-231.4669828749
 10
523.590407464
 20
-234.0609808702
 10
520.9243005602
 20
-236.4945419939
 10
518.2148186223
 20
-238.7580629671
 10
515.4726550961
 20
-240.8426146776
 10
512.7086315143
 20
-242.7399636585
 10
509.9336563373
 20
-244.4426262674
 10
507.1586811603
 20
-245.9438818005
 10
504.3946575784
 20
-247.2378065191
 10
501.6524940522
 20
-248.319289425
 10
498.9430121144
 20
-249.1840697094
 10
496.2769052105
 20
-249.8287300952
 10
493.6646962234
 20
-250.2507243992
 10
491.1166926916
 20
-250.4483912168
 10
488.6429505898
 20
-250.4209474542
 10
486.2532334988
 20
-250.1685058157
 10
483.9569730932
 20
-249.6920580695
 10
481.7632296282
 20
-248.9934856903
 10
479.680661647
 20
-248.0755469292
 10
478.6861962197
 20
-247.5368785866
  0
LWPOLYLINE
  5
EB
330
1F
100
AcDbEntity
  8
0
  6
Continuous
 62
     1
370
    25
100
AcDbPolyline
 90
       59
 70
   128
 43
0.0
 10
452.1834004511
 20
-56.5159483228
 10
453.0296986325
 20
-57.2088033438
 10
455.0579577652
 20
-59.0902784734
 10
456.9450987123
 20
-61.171614344
 10
458.6859532166
 20
-63.4471009154
 10
460.2757376108
 20
-65.9105171522
 10
461.7101107695
 20
-68.5550945274
 10
462.9851266939
 20
-71.3735930638
 10
464.0972977324
 20
-74.3582876523
 10
465.0435735068
 20
-77.500993905
 10
465.821361986
 20
-80.7931000969
 10
466.428534754
 20
-84.2255800941
 10
466.8634164736
 20
-87.7890321369
 10
467.1248270331
 20
-91.4736807441
 10
467.2120446678
 20
-95.2694310835
 10
467.1248270331
 20
-99.1658807604
 10
466.8634164736
 20
-103.1523475753
 10
466.428534754
 20
-107.217903364
 10
465.821361986
 20
-111.3514101174
 10
465.0435735068
 20
-115.5415317725
 10
464.0972977324
 20
-119.7767847788
 10
462.9851266939
 20
-124.0455647158
 10
461.7101107695
 20
-128.3361653041
 10
460.2757376108
 20
-132.6368346773
 10
458.6859532166
 20
-136.9357769053
 10
456.9450987123
 20
-141.2212113045
 10
455.0579577652
 20
-145.4813937347
 10
453.0296986325
 20
-149.7046470127
 10
450.8658794299
 20
-153.8793913312
 10
448.5724323264
 20
-157.994189885
 10
446.1556424708
 20
-162.0377610362
 10
443.6221374549
 20
-165.9990208998
 10
440.9788557037
 20
-169.8671137586
 10
438.2330464751
 20
-173.6314363981
 10
435.39223825
 20
-177.2816746062
 10
432.4642097561
 20
-180.8078138165
 10
429.4569926021
 20
-184.2002045085
 10
426.3788291313
 20
-187.4495317852
 10
423.2381526644
 20
-190.5468997826
 10
420.0435756467
 20
-193.4838141779
 10
416.8038514517
 20
-196.252228574
 10
413.5278605521
 20
-198.8445585673
 10
410.2245822023
 20
-201.2536859268
 10
406.9030717185
 20
-203.4730203802
 10
403.5724318322
 20
-205.4964735653
 10
400.2417919459
 20
-207.3184953397
 10
396.920281462
 20
-208.934095262
 10
393.6170031122
 20
-210.3388519044
 10
390.3410122126
 20
-211.5289004937
 10
387.1012880176
 20
-212.5009920342
 10
383.9067109999
 20
-213.2524577542
 10
380.7660345331
 20
-213.7812376206
 10
377.6878710622
 20
-214.0858822389
 10
374.6806539083
 20
-214.165550568
 10
371.7526254144
 20
-214.0200410981
 10
368.9118171893
 20
-213.6497302515
 10
366.1660079607
 20
-213.0556514667
 10
363.5227262095
 20
-212.2394267571
 10
362.5359420453
 20
-211.8671940436
  0
ARC
  5
EC
330
1F
100
AcDbEntity
  8
0
  6
Continuous
 62
     1
370
    25
100
AcDbCircle
 10
476.6557237105
 20
-174.1978854394
 30
0.0
 40
127.3936238441273
100
AcDbArc
 50
148.2966959685
 51
151.7086804963
  0
LWPOLYLINE
  5
ED
330
1F
100
AcDbEntity
  8
0
  6
Continuous
 62
     1
370
    25
100
AcDbPolyline
 90
       45
 70
   128
 43
0.0
 10
464.0042914916
 20
-73.2501136785
 10
464.5507411876
 20
-74.7918802705
 10
465.4952625994
 20
-77.9287551291
 10
466.271607549
 20
-81.2147516267
 10
466.8776528888
 20
-84.6408626414
 10
467.31172855
 20
-88.1977001023
 10
467.5726544207
 20
-91.875510962
 10
467.6597087363
 20
-95.664218259
 10
467.5726544207
 20
-99.5534363293
 10
467.31172855
 20
-103.5325057869
 10
466.8776528888
 20
-107.5905163384
 10
466.271607549
 20
-111.7163524085
 10
465.4952625994
 20
-115.8986977055
 10
464.5507411876
 20
-120.1260937738
 10
463.4406353446
 20
-124.3869498813
 10
462.1679849121
 20
-128.6695901659
 10
460.7362775416
 20
-132.9622749289
 10
459.1494381584
 20
-137.2532416985
 10
457.4118184247
 20
-141.5307219594
 10
455.528175666
 20
-145.7830019874
 10
453.5036834079
 20
-149.9984137256
 10
451.3438786927
 20
-154.1654138667
 10
449.0546884209
 20
-158.2725747306
 10
446.6423845704
 20
-162.3086405341
 10
444.1135789281
 20
-166.2625517253
 10
441.4752046506
 20
-170.123461712
 10
438.7344899223
 20
-173.8808037802
 10
435.8989526875
 20
-177.5242637167
 10
432.9763585028
 20
-181.0438649769
 10
429.9747231721
 20
-184.4299549972
 10
426.9022705993
 20
-187.67325386
 10
423.7674235684
 20
-190.764871784
 10
420.5787734513
 20
-193.6963387793
 10
417.3450617676
 20
-196.4596152919
 10
414.0751498924
 20
-199.0471340266
 10
410.7780025919
 20
-201.4517912
 10
407.4626557555
 20
-203.6670077549
 10
404.1381966386
 20
-205.6867042629
 10
400.8137375218
 20
-207.5053465499
 10
397.4983906853
 20
-209.117947975
 10
394.2012433848
 20
-210.5200960445
 10
390.9313315096
 20
-211.7079372002
 10
387.6976198259
 20
-212.6782247264
 10
384.5089697088
 20
-213.4282947927
 10
382.9740881702
 20
-213.7133661796
  0
LWPOLYLINE
  5
EE
330
1F
100
AcDbEntity
  8
0
  6
Continuous
 62
     1
370
    25
100
AcDbPolyline
 90
       39
 70
   128
 43
0.0
 10
489.5372474462
 20
-115.5762330149
 10
490.2882884816
 20
-117.5975195548
 10
491.0649337274
 20
-120.2361203329
 10
491.6721934233
 20
-123.0227270374
 10
492.1076704672
 20
-125.94634315
 10
492.369647375
 20
-128.9954284852
 10
492.4570862806
 20
-132.157953183
 10
492.369647375
 20
-135.4214326923
 10
492.1076704672
 20
-138.7729901269
 10
491.6721934233
 20
-142.1993973321
 10
491.0649337274
 20
-145.6871311576
 10
490.2882884816
 20
-149.2224274499
 10
489.3453212347
 20
-152.7913358047
 10
488.2397567147
 20
-156.379768236
 10
486.975951852
 20
-159.9735653337
 10
485.5589010481
 20
-163.5585434124
 10
483.9941940288
 20
-167.1205538242
 10
482.2880053073
 20
-170.6455377105
 10
480.4470678429
 20
-174.1195853158
 10
478.4786493326
 20
-177.5289861763
 10
476.3905179674
 20
-180.8602853903
 10
474.1909134563
 20
-184.1003338067
 10
471.8885154158
 20
-187.236345817
 10
469.4924117603
 20
-190.2559449799
 10
467.0120605058
 20
-193.1472164897
 10
464.4572476238
 20
-195.8987436749
 10
461.8380567477
 20
-198.4996741553
 10
459.1648257094
 20
-200.9397388496
 10
456.4481037332
 20
-203.2093101467
 10
453.6986119238
 20
-205.2994307997
 10
450.927202436
 20
-207.2018527059
 10
448.1448117185
 20
-208.9090638981
 10
445.3624210011
 20
-210.4143326487
 10
442.5910115133
 20
-211.7117120274
 10
439.8415197039
 20
-212.7960870465
 10
437.1247977277
 20
-213.6631761774
 10
434.4515666893
 20
-214.3095583432
 10
431.8323758133
 20
-214.7326812795
 10
431.7382408272
 20
-214.7438421254
  0
LWPOLYLINE
  5
EF
330
1F
100
AcDbEntity
  8
0
  6
Continuous
 62
     1
370
    25
100
AcDbPolyline
 90
       44
 70
   128
 43
0.0
 10
486.4320546745
 20
-109.6993113298
 10
487.4382237548
 20
-111.1227763026
 10
488.6986595039
 20
-113.2517283072
 10
489.8012790128
 20
-115.5575400463
 10
490.7417332538
 20
-118.031109892
 10
491.5163080357
 20
-120.6626792359
 10
492.1219477121
 20
-123.4418606287
 10
492.5562657177
 20
-126.3576834088
 10
492.8175419341
 20
-129.3986442729
 10
492.904749032
 20
-132.5527395981
 10
492.8175419341
 20
-135.8075220953
 10
492.5562657177
 20
-139.1501460578
 10
492.1219477121
 20
-142.5674217334
 10
491.5163080357
 20
-146.0458598125
 10
490.7417332538
 20
-149.5717341639
 10
489.8012790128
 20
-153.1311293637
 10
488.6986595039
 20
-156.7099984901
 10
487.4382237548
 20
-160.2942186342
 10
486.0249503622
 20
-163.8696410907
 10
484.4644132467
 20
-167.4221567541
 10
482.7627711166
 20
-170.9377478294
 10
480.9267411258
 20
-174.40253802
 10
478.9635698981
 20
-177.8028503203
 10
476.881001917
 20
-181.1252708916
 10
474.687258452
 20
-184.3566855624
 10
472.3909980463
 20
-187.4843391405
 10
470.0012809554
 20
-190.4958894029
 10
467.5275388536
 20
-193.3794550019
 10
464.9795353218
 20
-196.1236504429
 10
462.3673263346
 20
-198.7176484382
 10
459.7012194308
 20
-201.1512095619
 10
456.9917374929
 20
-203.4147305351
 10
454.2495739667
 20
-205.4992822456
 10
451.4855503849
 20
-207.3966312265
 10
448.7105752079
 20
-209.0992938354
 10
445.9356000309
 20
-210.6005493685
 10
443.171576449
 20
-211.8944740871
 10
440.4294129229
 20
-212.975956993
 10
437.719930985
 20
-213.8407372774
 10
435.0538240811
 20
-214.4853976632
 10
432.441615094
 20
-214.9073919672
 10
429.8936115622
 20
-215.1050587848
 10
427.4198694604
 20
-215.0776150222
 10
425.6903063602
 20
-214.9185030598
  0
ENDSEC
  0
SECTION
  2
OBJECTS
  0
DICTIONARY
  5
C
330
0
100
AcDbDictionary
281
     1
  3
ACAD_GROUP
350
D
  3
ACAD_LAYOUT
350
1A
  3
ACAD_MLINESTYLE
350
17
  3
ACAD_PLOTSETTINGS
350
19
  3
ACAD_PLOTSTYLENAME
350
E
  3
ACAD_SCALELIST
350
47
  0
DICTIONARY
  5
D
102
{ACAD_REACTORS
330
C
102
}
330
C
100
AcDbDictionary
281
     1
  0
DICTIONARY
  5
1A
102
{ACAD_REACTORS
330
C
102
}
330
C
100
AcDbDictionary
281
     1
  3
Layout1
350
1E
  3
Layout2
350
26
  3
Model
350
22
  0
DICTIONARY
  5
17
102
{ACAD_REACTORS
330
C
102
}
330
C
100
AcDbDictionary
281
     1
  3
Standard
350
18
  0
DICTIONARY
  5
19
102
{ACAD_REACTORS
330
C
102
}
330
C
100
AcDbDictionary
281
     1
  0
ACDBDICTIONARYWDFLT
  5
E
102
{ACAD_REACTORS
330
C
102
}
330
C
100
AcDbDictionary
281
     1
  3
Normal
350
F
100
AcDbDictionaryWithDefault
340
F
  0
DICTIONARY
  5
47
102
{ACAD_REACTORS
330
C
102
}
330
C
100
AcDbDictionary
281
     1
  3
A0
350
48
  3
A1
350
49
  3
A2
350
4A
  3
A3
350
4B
  3
A4
350
4C
  3
A5
350
4D
  3
A6
350
4E
  3
A7
350
4F
  3
A8
350
50
  3
A9
350
51
  3
B0
350
52
  3
B1
350
53
  3
B2
350
54
  3
B3
350
55
  3
B4
350
56
  3
B5
350
57
  3
B6
350
58
  3
B7
350
59
  3
B8
350
5A
  3
B9
350
5B
  3
C0
350
5C
  3
C1
350
5D
  3
C2
350
5E
  3
C3
350
5F
  3
C4
350
60
  3
C5
350
61
  3
C6
350
62
  3
C7
350
63
  3
C8
350
64
  3
C9
350
65
  3
D0
350
66
  3
D1
350
67
  3
D2
350
68
  0
LAYOUT
  5
1E
102
{ACAD_REACTORS
330
1A
102
}
330
1A
100
AcDbPlotSettings
  1

  2
none_device
  4

  6

 40
0.0
 41
0.0
 42
0.0
 43
0.0
 44
0.0
 45
0.0
 46
0.0
 47
0.0
 48
0.0
 49
0.0
140
0.0
141
0.0
142
1.0
143
1.0
 70
   688
 72
     1
 73
     0
 74
     5
  7

 75
    16
147
1.0
148
0.0
149
0.0
100
AcDbLayout
  1
Layout1
 70
     1
 71
     1
 10
0.0
 20
0.0
 11
420.0
 21
297.0
 12
0.0
 22
0.0
 32
0.0
 14
1.0000000000E+20
 24
1.0000000000E+20
 34
1.0000000000E+20
 15
-1.0000000000E+20
 25
-1.0000000000E+20
 35
-1.0000000000E+20
146
0.0
 13
0.0
 23
0.0
 33
0.0
 16
1.0
 26
0.0
 36
0.0
 17
0.0
 27
1.0
 37
0.0
 76
     0
330
1B
  0
LAYOUT
  5
26
102
{ACAD_REACTORS
330
1A
102
}
330
1A
100
AcDbPlotSettings
  1

  2
none_device
  4

  6

 40
0.0
 41
0.0
 42
0.0
 43
0.0
 44
0.0
 45
0.0
 46
0.0
 47
0.0
 48
0.0
 49
0.0
140
0.0
141
0.0
142
1.0
143
1.0
 70
   688
 72
     1
 73
     0
 74
     5
  7

 75
    16
147
1.0
148
0.0
149
0.0
100
AcDbLayout
  1
Layout2
 70
     1
 71
     2
 10
0.0
 20
0.0
 11
0.0
 21
0.0
 12
0.0
 22
0.0
 32
0.0
 14
0.0
 24
0.0
 34
0.0
 15
0.0
 25
0.0
 35
0.0
146
0.0
 13
0.0
 23
0.0
 33
0.0
 16
1.0
 26
0.0
 36
0.0
 17
0.0
 27
1.0
 37
0.0
 76
     0
330
23
  0
LAYOUT
  5
22
102
{ACAD_REACTORS
330
1A
102
}
330
1A
100
AcDbPlotSettings
  1

  2
none_device
  4
Letter_(8.50_x_11.00_Inches)
  6

 40
6.35
 41
6.35
 42
6.35000508
 43
6.35000508
 44
215.9
 45
279.4
 46
0.0
 47
0.0
 48
0.0
 49
0.0
140
0.0
141
0.0
142
1.0
143
1.0
 70
  1712
 72
     1
 73
     0
 74
     0
  7

 75
     0
147
1.0
148
0.0
149
0.0
100
AcDbLayout
  1
Model
 70
     1
 71
     0
 10
0.0
 20
0.0
 11
279.4
 21
215.9
 12
0.0
 22
0.0
 32
0.0
 14
0.0
 24
0.0
 34
0.0
 15
279.4
 25
215.9
 35
0.0
146
0.0
 13
0.0
 23
0.0
 33
0.0
 16
1.0
 26
0.0
 36
0.0
 17
0.0
 27
1.0
 37
0.0
 76
     0
330
1F
331
29
  0
MLINESTYLE
  5
18
102
{ACAD_REACTORS
330
17
102
}
330
17
100
AcDbMlineStyle
  2
Standard
 70
     0
  3

 62
   256
 51
90.0
 52
90.0
 71
     2
 49
0.5
 62
   256
  6
BYLAYER
 49
-0.5
 62
   256
  6
BYLAYER
  0
ACDBPLACEHOLDER
  5
F
102
{ACAD_REACTORS
330
E
102
}
330
E
  0
SCALE
  5
48
102
{ACAD_REACTORS
330
47
102
}
330
47
100
AcDbScale
 70
     0
300
1:1
140
1.0
141
1.0
290
     1
  0
SCALE
  5
49
102
{ACAD_REACTORS
330
47
102
}
330
47
100
AcDbScale
 70
     0
300
1:2
140
1.0
141
2.0
290
     0
  0
SCALE
  5
4A
102
{ACAD_REACTORS
330
47
102
}
330
47
100
AcDbScale
 70
     0
300
1:4
140
1.0
141
4.0
290
     0
  0
SCALE
  5
4B
102
{ACAD_REACTORS
330
47
102
}
330
47
100
AcDbScale
 70
     0
300
1:5
140
1.0
141
5.0
290
     0
  0
SCALE
  5
4C
102
{ACAD_REACTORS
330
47
102
}
330
47
100
AcDbScale
 70
     0
300
1:8
140
1.0
141
8.0
290
     0
  0
SCALE
  5
4D
102
{ACAD_REACTORS
330
47
102
}
330
47
100
AcDbScale
 70
     0
300
1:10
140
1.0
141
10.0
290
     0
  0
SCALE
  5
4E
102
{ACAD_REACTORS
330
47
102
}
330
47
100
AcDbScale
 70
     0
300
1:16
140
1.0
141
16.0
290
     0
  0
SCALE
  5
4F
102
{ACAD_REACTORS
330
47
102
}
330
47
100
AcDbScale
 70
     0
300
1:20
140
1.0
141
20.0
290
     0
  0
SCALE
  5
50
102
{ACAD_REACTORS
330
47
102
}
330
47
100
AcDbScale
 70
     0
300
1:30
140
1.0
141
30.0
290
     0
  0
SCALE
  5
51
102
{ACAD_REACTORS
330
47
102
}
330
47
100
AcDbScale
 70
     0
300
1:40
140
1.0
141
40.0
290
     0
  0
SCALE
  5
52
102
{ACAD_REACTORS
330
47
102
}
330
47
100
AcDbScale
 70
     0
300
1:50
140
1.0
141
50.0
290
     0
  0
SCALE
  5
53
102
{ACAD_REACTORS
330
47
102
}
330
47
100
AcDbScale
 70
     0
300
1:100
140
1.0
141
100.0
290
     0
  0
SCALE
  5
54
102
{ACAD_REACTORS
330
47
102
}
330
47
100
AcDbScale
 70
     0
300
2:1
140
2.0
141
1.0
290
     0
  0
SCALE
  5
55
102
{ACAD_REACTORS
330
47
102
}
330
47
100
AcDbScale
 70
     0
300
4:1
140
4.0
141
1.0
290
     0
  0
SCALE
  5
56
102
{ACAD_REACTORS
330
47
102
}
330
47
100
AcDbScale
 70
     0
300
8:1
140
8.0
141
1.0
290
     0
  0
SCALE
  5
57
102
{ACAD_REACTORS
330
47
102
}
330
47
100
AcDbScale
 70
     0
300
10:1
140
10.0
141
1.0
290
     0
  0
SCALE
  5
58
102
{ACAD_REACTORS
330
47
102
}
330
47
100
AcDbScale
 70
     0
300
100:1
140
100.0
141
1.0
290
     0
  0
SCALE
  5
59
102
{ACAD_REACTORS
330
47
102
}
330
47
100
AcDbScale
 70
     0
300
1/128" = 1'-0"
140
0.0078125
141
12.0
290
     0
  0
SCALE
  5
5A
102
{ACAD_REACTORS
330
47
102
}
330
47
100
AcDbScale
 70
     0
300
1/64" = 1'-0"
140
0.015625
141
12.0
290
     0
  0
SCALE
  5
5B
102
{ACAD_REACTORS
330
47
102
}
330
47
100
AcDbScale
 70
     0
300
1/32" = 1'-0"
140
0.03125
141
12.0
290
     0
  0
SCALE
  5
5C
102
{ACAD_REACTORS
330
47
102
}
330
47
100
AcDbScale
 70
     0
300
1/16" = 1'-0"
140
0.0625
141
12.0
290
     0
  0
SCALE
  5
5D
102
{ACAD_REACTORS
330
47
102
}
330
47
100
AcDbScale
 70
     0
300
3/32" = 1'-0"
140
0.09375
141
12.0
290
     0
  0
SCALE
  5
5E
102
{ACAD_REACTORS
330
47
102
}
330
47
100
AcDbScale
 70
     0
300
1/8" = 1'-0"
140
0.125
141
12.0
290
     0
  0
SCALE
  5
5F
102
{ACAD_REACTORS
330
47
102
}
330
47
100
AcDbScale
 70
     0
300
3/16" = 1'-0"
140
0.1875
141
12.0
290
     0
  0
SCALE
  5
60
102
{ACAD_REACTORS
330
47
102
}
330
47
100
AcDbScale
 70
     0
300
1/4" = 1'-0"
140
0.25
141
12.0
290
     0
  0
SCALE
  5
61
102
{ACAD_REACTORS
330
47
102
}
330
47
100
AcDbScale
 70
     0
300
3/8" = 1'-0"
140
0.375
141
12.0
290
     0
  0
SCALE
  5
62
102
{ACAD_REACTORS
330
47
102
}
330
47
100
AcDbScale
 70
     0
300
1/2" = 1'-0"
140
0.5
141
12.0
290
     0
  0
SCALE
  5
63
102
{ACAD_REACTORS
330
47
102
}
330
47
100
AcDbScale
 70
     0
300
3/4" = 1'-0"
140
0.75
141
12.0
290
     0
  0
SCALE
  5
64
102
{ACAD_REACTORS
330
47
102
}
330
47
100
AcDbScale
 70
     0
300
1" = 1'-0"
140
1.0
141
12.0
290
     0
  0
SCALE
  5
65
102
{ACAD_REACTORS
330
47
102
}
330
47
100
AcDbScale
 70
     0
300
1-1/2" = 1'-0"
140
1.5
141
12.0
290
     0
  0
SCALE
  5
66
102
{ACAD_REACTORS
330
47
102
}
330
47
100
AcDbScale
 70
     0
300
3" = 1'-0"
140
3.0
141
12.0
290
     0
  0
SCALE
  5
67
102
{ACAD_REACTORS
330
47
102
}
330
47
100
AcDbScale
 70
     0
300
6" = 1'-0"
140
6.0
141
12.0
290
     0
  0
SCALE
  5
68
102
{ACAD_REACTORS
330
47
102
}
330
47
100
AcDbScale
 70
     0
300
1'-0" = 1'-0"
140
12.0
141
12.0
290
     0
  0
ENDSEC
  0
EOF
